ISO-10303-21;
HEADER;
/* Generated by software containing ST-Developer
 * from STEP Tools, Inc. (www.steptools.com) 
 */

FILE_DESCRIPTION(
/* description */ (''),
/* implementation_level */ '2;1');

FILE_NAME(
/* name */ '',
/* time_stamp */ '2025-07-23T16:23:29+07:00',
/* author */ ('zeta-86'),
/* organization */ (''),
/* preprocessor_version */ 'ST-DEVELOPER v19.2',
/* originating_system */ 'Autodesk Inventor 2024',
/* authorisation */ '');

FILE_SCHEMA (('AUTOMOTIVE_DESIGN { 1 0 10303 214 3 1 1 }'));
ENDSEC;

DATA;
#10=MECHANICAL_DESIGN_GEOMETRIC_PRESENTATION_REPRESENTATION('',(#13),#470);
#11=SHAPE_REPRESENTATION_RELATIONSHIP('SRR','None',#477,#12);
#12=ADVANCED_BREP_SHAPE_REPRESENTATION('',(#14),#469);
#13=STYLED_ITEM('',(#486),#14);
#14=MANIFOLD_SOLID_BREP('\X2\04220432043504400434043E0435\X0\ \X2\04420435043B043E\X0\2',
#221);
#15=TOROIDAL_SURFACE('',#274,20.4,1.25);
#16=(
BOUNDED_CURVE()
B_SPLINE_CURVE(2,(#462,#463,#464),.UNSPECIFIED.,.F.,.F.)
B_SPLINE_CURVE_WITH_KNOTS((3,3),(1.30588711418879,1.44818198704152),
 .UNSPECIFIED.)
CURVE()
GEOMETRIC_REPRESENTATION_ITEM()
RATIONAL_B_SPLINE_CURVE((0.999999992685328,0.995504371513469,0.996063956767647))
REPRESENTATION_ITEM('')
);
#17=(
BOUNDED_SURFACE()
B_SPLINE_SURFACE(2,2,((#435,#436,#437,#438,#439,#440,#441,#442,#443),(#444,
#445,#446,#447,#448,#449,#450,#451,#452),(#453,#454,#455,#456,#457,#458,
#459,#460,#461)),.UNSPECIFIED.,.F.,.T.,.F.)
B_SPLINE_SURFACE_WITH_KNOTS((3,3),(3,2,2,2,3),(1.30588699842727,1.55897435998281),
(-3.14159265358979,-1.5707963267949,0.,1.5707963267949,3.14159265358979),
 .UNSPECIFIED.)
GEOMETRIC_REPRESENTATION_ITEM()
RATIONAL_B_SPLINE_SURFACE(((1.,0.707106781186548,1.,0.707106781186548,1.,
0.707106781186548,1.,0.707106781186548,1.),(0.992004027137666,0.701452774553408,
0.992004027137666,0.701452774553408,0.992004027137666,0.701452774553408,
0.992004027137666,0.701452774553408,0.992004027137666),(1.,0.707106781186548,
1.,0.707106781186548,1.,0.707106781186548,1.,0.707106781186548,1.)))
REPRESENTATION_ITEM('')
SURFACE()
);
#18=CONICAL_SURFACE('',#260,17.75,0.785398163397448);
#19=CONICAL_SURFACE('',#264,19.575,0.785398163397448);
#20=CONICAL_SURFACE('',#270,19.575,0.785398163397448);
#21=B_SPLINE_CURVE_WITH_KNOTS('',3,(#370,#371,#372,#373,#374,#375,#376,
#377,#378,#379),.UNSPECIFIED.,.F.,.F.,(4,2,2,2,4),(-26.4739437578227,-26.281098665844,
-25.4677966143282,-24.6544945628124,-24.4616485819172),.UNSPECIFIED.);
#22=B_SPLINE_CURVE_WITH_KNOTS('',3,(#384,#385,#386,#387,#388,#389,#390,
#391,#392,#393),.UNSPECIFIED.,.F.,.F.,(4,2,2,2,4),(24.4616485795784,24.6544945171475,
25.4677966143371,26.2810987115267,26.4739437601793),.UNSPECIFIED.);
#23=B_SPLINE_CURVE_WITH_KNOTS('',3,(#397,#398,#399,#400),.UNSPECIFIED.,
 .F.,.F.,(4,4),(6.01052842699416,6.08747430110609),.UNSPECIFIED.);
#24=B_SPLINE_CURVE_WITH_KNOTS('',3,(#402,#403,#404,#405,#406,#407),
 .UNSPECIFIED.,.F.,.F.,(4,2,4),(6.08747430110609,6.15934895693876,6.16457550040945),
 .UNSPECIFIED.);
#25=LINE('',#363,#31);
#26=LINE('',#410,#32);
#27=LINE('',#419,#33);
#28=LINE('',#426,#34);
#29=LINE('',#428,#35);
#30=LINE('',#433,#36);
#31=VECTOR('',#294,19.15);
#32=VECTOR('',#313,17.75);
#33=VECTOR('',#324,19.575);
#34=VECTOR('',#333,20.);
#35=VECTOR('',#336,19.575);
#36=VECTOR('',#341,22.5);
#37=CYLINDRICAL_SURFACE('',#249,19.15);
#38=CYLINDRICAL_SURFACE('',#258,41.3733092727848);
#39=CYLINDRICAL_SURFACE('',#267,20.);
#40=CYLINDRICAL_SURFACE('',#271,22.5);
#41=FACE_BOUND('',#58,.T.);
#42=FACE_BOUND('',#66,.T.);
#43=FACE_OUTER_BOUND('',#57,.T.);
#44=FACE_OUTER_BOUND('',#59,.T.);
#45=FACE_OUTER_BOUND('',#60,.T.);
#46=FACE_OUTER_BOUND('',#61,.T.);
#47=FACE_OUTER_BOUND('',#62,.T.);
#48=FACE_OUTER_BOUND('',#63,.T.);
#49=FACE_OUTER_BOUND('',#64,.T.);
#50=FACE_OUTER_BOUND('',#65,.T.);
#51=FACE_OUTER_BOUND('',#67,.T.);
#52=FACE_OUTER_BOUND('',#68,.T.);
#53=FACE_OUTER_BOUND('',#69,.T.);
#54=FACE_OUTER_BOUND('',#70,.T.);
#55=FACE_OUTER_BOUND('',#71,.T.);
#56=FACE_OUTER_BOUND('',#72,.T.);
#57=EDGE_LOOP('',(#142));
#58=EDGE_LOOP('',(#143));
#59=EDGE_LOOP('',(#144));
#60=EDGE_LOOP('',(#145,#146,#147,#148,#149,#150));
#61=EDGE_LOOP('',(#151,#152));
#62=EDGE_LOOP('',(#153,#154));
#63=EDGE_LOOP('',(#155,#156,#157,#158,#159));
#64=EDGE_LOOP('',(#160,#161,#162,#163));
#65=EDGE_LOOP('',(#164));
#66=EDGE_LOOP('',(#165));
#67=EDGE_LOOP('',(#166,#167,#168,#169,#170));
#68=EDGE_LOOP('',(#171,#172,#173,#174,#175,#176));
#69=EDGE_LOOP('',(#177,#178,#179,#180,#181,#182));
#70=EDGE_LOOP('',(#183,#184,#185,#186,#187));
#71=EDGE_LOOP('',(#188,#189,#190,#191,#192,#193,#194,#195,#196));
#72=EDGE_LOOP('',(#197,#198,#199,#200,#201));
#73=CIRCLE('',#245,22.5);
#74=CIRCLE('',#246,21.4566869434823);
#75=CIRCLE('',#248,17.5);
#76=CIRCLE('',#250,19.15);
#77=CIRCLE('',#251,19.15);
#78=CIRCLE('',#252,19.15);
#79=CIRCLE('',#253,19.15);
#80=CIRCLE('',#255,41.3733092727848);
#81=CIRCLE('',#257,41.3733092727848);
#82=CIRCLE('',#259,31.7686398746645);
#83=CIRCLE('',#261,18.);
#84=CIRCLE('',#263,19.15);
#85=CIRCLE('',#265,20.);
#86=CIRCLE('',#266,20.);
#87=CIRCLE('',#268,20.);
#88=CIRCLE('',#269,20.);
#89=CIRCLE('',#272,22.5);
#90=CIRCLE('',#273,22.5);
#91=CIRCLE('',#275,1.25);
#92=VERTEX_POINT('',#350);
#93=VERTEX_POINT('',#352);
#94=VERTEX_POINT('',#355);
#95=VERTEX_POINT('',#358);
#96=VERTEX_POINT('',#359);
#97=VERTEX_POINT('',#362);
#98=VERTEX_POINT('',#364);
#99=VERTEX_POINT('',#368);
#100=VERTEX_POINT('',#369);
#101=VERTEX_POINT('',#382);
#102=VERTEX_POINT('',#383);
#103=VERTEX_POINT('',#396);
#104=VERTEX_POINT('',#409);
#105=VERTEX_POINT('',#413);
#106=VERTEX_POINT('',#416);
#107=VERTEX_POINT('',#417);
#108=VERTEX_POINT('',#422);
#109=VERTEX_POINT('',#423);
#110=VERTEX_POINT('',#430);
#111=VERTEX_POINT('',#431);
#112=EDGE_CURVE('',#92,#92,#73,.T.);
#113=EDGE_CURVE('',#93,#93,#74,.T.);
#114=EDGE_CURVE('',#94,#94,#75,.T.);
#115=EDGE_CURVE('',#95,#96,#76,.T.);
#116=EDGE_CURVE('',#96,#95,#77,.T.);
#117=EDGE_CURVE('',#96,#97,#25,.T.);
#118=EDGE_CURVE('',#97,#98,#78,.T.);
#119=EDGE_CURVE('',#98,#97,#79,.T.);
#120=EDGE_CURVE('',#99,#100,#21,.T.);
#121=EDGE_CURVE('',#100,#99,#80,.T.);
#122=EDGE_CURVE('',#101,#102,#22,.T.);
#123=EDGE_CURVE('',#102,#101,#81,.T.);
#124=EDGE_CURVE('',#102,#103,#23,.T.);
#125=EDGE_CURVE('',#100,#101,#82,.T.);
#126=EDGE_CURVE('',#103,#99,#24,.T.);
#127=EDGE_CURVE('',#94,#104,#26,.T.);
#128=EDGE_CURVE('',#104,#104,#83,.T.);
#129=EDGE_CURVE('',#105,#105,#84,.T.);
#130=EDGE_CURVE('',#106,#107,#85,.T.);
#131=EDGE_CURVE('',#107,#105,#27,.T.);
#132=EDGE_CURVE('',#107,#106,#86,.T.);
#133=EDGE_CURVE('',#108,#109,#87,.T.);
#134=EDGE_CURVE('',#109,#108,#88,.T.);
#135=EDGE_CURVE('',#109,#106,#28,.T.);
#136=EDGE_CURVE('',#108,#98,#29,.T.);
#137=EDGE_CURVE('',#110,#111,#89,.T.);
#138=EDGE_CURVE('',#110,#92,#30,.T.);
#139=EDGE_CURVE('',#111,#110,#90,.T.);
#140=EDGE_CURVE('',#111,#103,#16,.T.);
#141=EDGE_CURVE('',#95,#93,#91,.T.);
#142=ORIENTED_EDGE('',*,*,#112,.F.);
#143=ORIENTED_EDGE('',*,*,#113,.T.);
#144=ORIENTED_EDGE('',*,*,#114,.F.);
#145=ORIENTED_EDGE('',*,*,#115,.F.);
#146=ORIENTED_EDGE('',*,*,#116,.F.);
#147=ORIENTED_EDGE('',*,*,#117,.T.);
#148=ORIENTED_EDGE('',*,*,#118,.T.);
#149=ORIENTED_EDGE('',*,*,#119,.T.);
#150=ORIENTED_EDGE('',*,*,#117,.F.);
#151=ORIENTED_EDGE('',*,*,#120,.F.);
#152=ORIENTED_EDGE('',*,*,#121,.F.);
#153=ORIENTED_EDGE('',*,*,#122,.F.);
#154=ORIENTED_EDGE('',*,*,#123,.F.);
#155=ORIENTED_EDGE('',*,*,#124,.F.);
#156=ORIENTED_EDGE('',*,*,#123,.T.);
#157=ORIENTED_EDGE('',*,*,#125,.F.);
#158=ORIENTED_EDGE('',*,*,#121,.T.);
#159=ORIENTED_EDGE('',*,*,#126,.F.);
#160=ORIENTED_EDGE('',*,*,#114,.T.);
#161=ORIENTED_EDGE('',*,*,#127,.T.);
#162=ORIENTED_EDGE('',*,*,#128,.T.);
#163=ORIENTED_EDGE('',*,*,#127,.F.);
#164=ORIENTED_EDGE('',*,*,#129,.F.);
#165=ORIENTED_EDGE('',*,*,#128,.F.);
#166=ORIENTED_EDGE('',*,*,#130,.T.);
#167=ORIENTED_EDGE('',*,*,#131,.T.);
#168=ORIENTED_EDGE('',*,*,#129,.T.);
#169=ORIENTED_EDGE('',*,*,#131,.F.);
#170=ORIENTED_EDGE('',*,*,#132,.T.);
#171=ORIENTED_EDGE('',*,*,#133,.F.);
#172=ORIENTED_EDGE('',*,*,#134,.F.);
#173=ORIENTED_EDGE('',*,*,#135,.T.);
#174=ORIENTED_EDGE('',*,*,#132,.F.);
#175=ORIENTED_EDGE('',*,*,#130,.F.);
#176=ORIENTED_EDGE('',*,*,#135,.F.);
#177=ORIENTED_EDGE('',*,*,#133,.T.);
#178=ORIENTED_EDGE('',*,*,#134,.T.);
#179=ORIENTED_EDGE('',*,*,#136,.T.);
#180=ORIENTED_EDGE('',*,*,#118,.F.);
#181=ORIENTED_EDGE('',*,*,#119,.F.);
#182=ORIENTED_EDGE('',*,*,#136,.F.);
#183=ORIENTED_EDGE('',*,*,#137,.F.);
#184=ORIENTED_EDGE('',*,*,#138,.T.);
#185=ORIENTED_EDGE('',*,*,#112,.T.);
#186=ORIENTED_EDGE('',*,*,#138,.F.);
#187=ORIENTED_EDGE('',*,*,#139,.F.);
#188=ORIENTED_EDGE('',*,*,#140,.T.);
#189=ORIENTED_EDGE('',*,*,#126,.T.);
#190=ORIENTED_EDGE('',*,*,#120,.T.);
#191=ORIENTED_EDGE('',*,*,#125,.T.);
#192=ORIENTED_EDGE('',*,*,#122,.T.);
#193=ORIENTED_EDGE('',*,*,#124,.T.);
#194=ORIENTED_EDGE('',*,*,#140,.F.);
#195=ORIENTED_EDGE('',*,*,#139,.T.);
#196=ORIENTED_EDGE('',*,*,#137,.T.);
#197=ORIENTED_EDGE('',*,*,#115,.T.);
#198=ORIENTED_EDGE('',*,*,#116,.T.);
#199=ORIENTED_EDGE('',*,*,#141,.T.);
#200=ORIENTED_EDGE('',*,*,#113,.F.);
#201=ORIENTED_EDGE('',*,*,#141,.F.);
#202=PLANE('',#244);
#203=PLANE('',#247);
#204=PLANE('',#254);
#205=PLANE('',#256);
#206=PLANE('',#262);
#207=ADVANCED_FACE('',(#43,#41),#202,.F.);
#208=ADVANCED_FACE('',(#44),#203,.F.);
#209=ADVANCED_FACE('',(#45),#37,.T.);
#210=ADVANCED_FACE('',(#46),#204,.F.);
#211=ADVANCED_FACE('',(#47),#205,.T.);
#212=ADVANCED_FACE('',(#48),#38,.F.);
#213=ADVANCED_FACE('',(#49),#18,.F.);
#214=ADVANCED_FACE('',(#50,#42),#206,.T.);
#215=ADVANCED_FACE('',(#51),#19,.T.);
#216=ADVANCED_FACE('',(#52),#39,.T.);
#217=ADVANCED_FACE('',(#53),#20,.T.);
#218=ADVANCED_FACE('',(#54),#40,.T.);
#219=ADVANCED_FACE('',(#55),#17,.F.);
#220=ADVANCED_FACE('',(#56),#15,.T.);
#221=CLOSED_SHELL('',(#207,#208,#209,#210,#211,#212,#213,#214,#215,#216,
#217,#218,#219,#220));
#222=DERIVED_UNIT_ELEMENT(#225,1.);
#223=DERIVED_UNIT_ELEMENT(#472,-3.);
#224=DIMENSIONAL_EXPONENTS(0.,1.,0.,0.,0.,0.,0.);
#225=(
CONVERSION_BASED_UNIT('gram',#227)
MASS_UNIT()
NAMED_UNIT(#224)
);
#226=(
MASS_UNIT()
NAMED_UNIT(*)
SI_UNIT(.KILO.,.GRAM.)
);
#227=MASS_MEASURE_WITH_UNIT(MASS_MEASURE(0.001),#226);
#228=DERIVED_UNIT((#222,#223));
#229=MEASURE_REPRESENTATION_ITEM('density measure',
POSITIVE_RATIO_MEASURE(1.),#228);
#230=PROPERTY_DEFINITION_REPRESENTATION(#235,#232);
#231=PROPERTY_DEFINITION_REPRESENTATION(#236,#233);
#232=REPRESENTATION('material name',(#234),#469);
#233=REPRESENTATION('density',(#229),#469);
#234=DESCRIPTIVE_REPRESENTATION_ITEM('\X2\04220438043F043E0432044B0435\X0\',
'\X2\04220438043F043E0432044B0435\X0\');
#235=PROPERTY_DEFINITION('material property','material name',#479);
#236=PROPERTY_DEFINITION('material property','density of part',#479);
#237=DATE_TIME_ROLE('creation_date');
#238=APPLIED_DATE_AND_TIME_ASSIGNMENT(#239,#237,(#479));
#239=DATE_AND_TIME(#240,#241);
#240=CALENDAR_DATE(2023,9,10);
#241=LOCAL_TIME(11,28,13.,#242);
#242=COORDINATED_UNIVERSAL_TIME_OFFSET(0,0,.BEHIND.);
#243=AXIS2_PLACEMENT_3D('',#348,#276,#277);
#244=AXIS2_PLACEMENT_3D('',#349,#278,#279);
#245=AXIS2_PLACEMENT_3D('',#351,#280,#281);
#246=AXIS2_PLACEMENT_3D('',#353,#282,#283);
#247=AXIS2_PLACEMENT_3D('',#354,#284,#285);
#248=AXIS2_PLACEMENT_3D('',#356,#286,#287);
#249=AXIS2_PLACEMENT_3D('',#357,#288,#289);
#250=AXIS2_PLACEMENT_3D('',#360,#290,#291);
#251=AXIS2_PLACEMENT_3D('',#361,#292,#293);
#252=AXIS2_PLACEMENT_3D('',#365,#295,#296);
#253=AXIS2_PLACEMENT_3D('',#366,#297,#298);
#254=AXIS2_PLACEMENT_3D('',#367,#299,#300);
#255=AXIS2_PLACEMENT_3D('',#380,#301,#302);
#256=AXIS2_PLACEMENT_3D('',#381,#303,#304);
#257=AXIS2_PLACEMENT_3D('',#394,#305,#306);
#258=AXIS2_PLACEMENT_3D('',#395,#307,#308);
#259=AXIS2_PLACEMENT_3D('',#401,#309,#310);
#260=AXIS2_PLACEMENT_3D('',#408,#311,#312);
#261=AXIS2_PLACEMENT_3D('',#411,#314,#315);
#262=AXIS2_PLACEMENT_3D('',#412,#316,#317);
#263=AXIS2_PLACEMENT_3D('',#414,#318,#319);
#264=AXIS2_PLACEMENT_3D('',#415,#320,#321);
#265=AXIS2_PLACEMENT_3D('',#418,#322,#323);
#266=AXIS2_PLACEMENT_3D('',#420,#325,#326);
#267=AXIS2_PLACEMENT_3D('',#421,#327,#328);
#268=AXIS2_PLACEMENT_3D('',#424,#329,#330);
#269=AXIS2_PLACEMENT_3D('',#425,#331,#332);
#270=AXIS2_PLACEMENT_3D('',#427,#334,#335);
#271=AXIS2_PLACEMENT_3D('',#429,#337,#338);
#272=AXIS2_PLACEMENT_3D('',#432,#339,#340);
#273=AXIS2_PLACEMENT_3D('',#434,#342,#343);
#274=AXIS2_PLACEMENT_3D('',#465,#344,#345);
#275=AXIS2_PLACEMENT_3D('',#466,#346,#347);
#276=DIRECTION('axis',(0.,0.,1.));
#277=DIRECTION('refdir',(1.,0.,0.));
#278=DIRECTION('center_axis',(0.,1.,0.));
#279=DIRECTION('ref_axis',(0.,0.,1.));
#280=DIRECTION('center_axis',(0.,1.,0.));
#281=DIRECTION('ref_axis',(1.,0.,0.));
#282=DIRECTION('center_axis',(-3.06161699786838E-17,1.,3.06161699786838E-17));
#283=DIRECTION('ref_axis',(0.,3.06161699786838E-17,-1.));
#284=DIRECTION('center_axis',(0.,1.,0.));
#285=DIRECTION('ref_axis',(0.,0.,1.));
#286=DIRECTION('center_axis',(0.,1.,0.));
#287=DIRECTION('ref_axis',(1.,0.,0.));
#288=DIRECTION('center_axis',(0.,1.,0.));
#289=DIRECTION('ref_axis',(-1.,0.,0.));
#290=DIRECTION('center_axis',(0.,1.,0.));
#291=DIRECTION('ref_axis',(-1.,0.,0.));
#292=DIRECTION('center_axis',(0.,1.,0.));
#293=DIRECTION('ref_axis',(-1.,0.,0.));
#294=DIRECTION('',(0.,-1.,0.));
#295=DIRECTION('center_axis',(0.,1.,0.));
#296=DIRECTION('ref_axis',(1.,0.,0.));
#297=DIRECTION('center_axis',(0.,1.,0.));
#298=DIRECTION('ref_axis',(1.,0.,0.));
#299=DIRECTION('center_axis',(1.,0.,0.));
#300=DIRECTION('ref_axis',(0.,0.,-1.));
#301=DIRECTION('center_axis',(1.,0.,0.));
#302=DIRECTION('ref_axis',(0.,1.,0.));
#303=DIRECTION('center_axis',(1.,0.,0.));
#304=DIRECTION('ref_axis',(0.,0.,-1.));
#305=DIRECTION('center_axis',(-1.,0.,0.));
#306=DIRECTION('ref_axis',(0.,1.,0.));
#307=DIRECTION('center_axis',(1.,0.,0.));
#308=DIRECTION('ref_axis',(0.,-0.999999998452575,-5.56313696725308E-5));
#309=DIRECTION('center_axis',(0.,-0.967308446641851,0.253602778090719));
#310=DIRECTION('ref_axis',(-0.0314775830487199,0.253477107288679,0.966829104778075));
#311=DIRECTION('center_axis',(0.,-1.,0.));
#312=DIRECTION('ref_axis',(1.,0.,0.));
#313=DIRECTION('',(-0.707106781186547,-0.707106781186548,-8.65956056235493E-17));
#314=DIRECTION('center_axis',(0.,-1.,0.));
#315=DIRECTION('ref_axis',(1.,0.,0.));
#316=DIRECTION('center_axis',(0.,-1.,0.));
#317=DIRECTION('ref_axis',(0.,0.,-1.));
#318=DIRECTION('center_axis',(0.,1.,0.));
#319=DIRECTION('ref_axis',(1.,0.,0.));
#320=DIRECTION('center_axis',(0.,1.,0.));
#321=DIRECTION('ref_axis',(1.,0.,0.));
#322=DIRECTION('center_axis',(0.,-1.,0.));
#323=DIRECTION('ref_axis',(1.,0.,0.));
#324=DIRECTION('',(0.707106781186547,-0.707106781186548,-8.65956056235493E-17));
#325=DIRECTION('center_axis',(0.,-1.,0.));
#326=DIRECTION('ref_axis',(1.,0.,0.));
#327=DIRECTION('center_axis',(0.,1.,0.));
#328=DIRECTION('ref_axis',(-1.,0.,0.));
#329=DIRECTION('center_axis',(0.,1.,0.));
#330=DIRECTION('ref_axis',(1.,0.,0.));
#331=DIRECTION('center_axis',(0.,1.,0.));
#332=DIRECTION('ref_axis',(1.,0.,0.));
#333=DIRECTION('',(0.,-1.,0.));
#334=DIRECTION('center_axis',(0.,-1.,0.));
#335=DIRECTION('ref_axis',(1.,0.,0.));
#336=DIRECTION('',(0.707106781186547,0.707106781186548,8.65956056235493E-17));
#337=DIRECTION('center_axis',(0.,1.,0.));
#338=DIRECTION('ref_axis',(-1.,0.,0.));
#339=DIRECTION('center_axis',(0.,1.,0.));
#340=DIRECTION('ref_axis',(1.,0.,0.));
#341=DIRECTION('',(0.,-1.,0.));
#342=DIRECTION('center_axis',(0.,1.,0.));
#343=DIRECTION('ref_axis',(1.,0.,0.));
#344=DIRECTION('center_axis',(6.12323399573677E-17,-1.,-6.12323399573677E-17));
#345=DIRECTION('ref_axis',(-0.0820055167914309,5.12805092205615E-17,-0.996631875476482));
#346=DIRECTION('center_axis',(-0.996631875476482,-6.60474914940774E-17,
0.0820055167914308));
#347=DIRECTION('ref_axis',(0.0820055167914308,-5.76905728731317E-17,0.996631875476482));
#348=CARTESIAN_POINT('',(0.,0.,0.));
#349=CARTESIAN_POINT('Origin',(-1.09832194166439,-0.432350364186072,0.));
#350=CARTESIAN_POINT('',(21.4016780583356,-0.432350364186072,-2.75545529808154E-15));
#351=CARTESIAN_POINT('Origin',(-1.09832194166439,-0.432350364186072,0.));
#352=CARTESIAN_POINT('',(0.661244759767824,-0.432350364186072,21.3844181499945));
#353=CARTESIAN_POINT('Origin',(-1.09832194166439,-0.432350364186072,2.04444665381661E-17));
#354=CARTESIAN_POINT('Origin',(-1.09832194166439,-7.93235036418608,0.));
#355=CARTESIAN_POINT('',(-18.5983219416644,-7.93235036418608,2.14313189850787E-15));
#356=CARTESIAN_POINT('Origin',(-1.09832194166439,-7.93235036418608,0.));
#357=CARTESIAN_POINT('Origin',(-1.09832194166439,-0.782350364186073,0.));
#358=CARTESIAN_POINT('',(0.47208370489151,-1.10011731715244,19.0855004153746));
#359=CARTESIAN_POINT('',(18.0516780583356,-1.10011731715244,-2.34519862036718E-15));
#360=CARTESIAN_POINT('Origin',(-1.09832194166439,-1.10011731715244,0.));
#361=CARTESIAN_POINT('Origin',(-1.09832194166439,-1.10011731715244,0.));
#362=CARTESIAN_POINT('',(18.0516780583356,-1.93235036418607,-2.34519862036718E-15));
#363=CARTESIAN_POINT('',(18.0516780583356,-0.782350364186073,-2.34519862036718E-15));
#364=CARTESIAN_POINT('',(-20.2483219416644,-1.93235036418607,0.));
#365=CARTESIAN_POINT('Origin',(-1.09832194166439,-1.93235036418607,0.));
#366=CARTESIAN_POINT('Origin',(-1.09832194166439,-1.93235036418607,0.));
#367=CARTESIAN_POINT('Origin',(-0.0983219416643889,43.9409589085987,0.));
#368=CARTESIAN_POINT('',(-0.0983219416643889,3.9182119125675,-10.4847719609525));
#369=CARTESIAN_POINT('',(-0.0983219416643889,3.91821191256751,10.4847719609526));
#370=CARTESIAN_POINT('Ctrl Pts',(-0.0983219416643889,3.91821191278058,-10.4847719609787));
#371=CARTESIAN_POINT('Ctrl Pts',(-0.0983219416643889,4.00278079792162,-9.79743245324073));
#372=CARTESIAN_POINT('Ctrl Pts',(-0.0983219416643889,4.07872572700887,-9.11162399146175));
#373=CARTESIAN_POINT('Ctrl Pts',(-0.0983219416643889,4.43049274745468,-5.54692177026224));
#374=CARTESIAN_POINT('Ctrl Pts',(-0.0983219415952145,4.56164151958294,-2.71101162671818));
#375=CARTESIAN_POINT('Ctrl Pts',(-0.0983219415952145,4.56164182183871,2.71100205005394));
#376=CARTESIAN_POINT('Ctrl Pts',(-0.0983219416643889,4.43049336589197,5.54691220822003));
#377=CARTESIAN_POINT('Ctrl Pts',(-0.0983219416643889,4.07872643210148,9.11161761800174));
#378=CARTESIAN_POINT('Ctrl Pts',(-0.0983219416643889,4.00278119005956,9.79742926133728));
#379=CARTESIAN_POINT('Ctrl Pts',(-0.0983219416643889,3.91821191228968,10.4847719609184));
#380=CARTESIAN_POINT('Origin',(-0.0983219416643889,43.9409589085987,2.16840434497101E-18));
#381=CARTESIAN_POINT('Origin',(-2.09832194166439,43.9409589085987,0.));
#382=CARTESIAN_POINT('',(-2.09832194166439,3.91821191256751,10.4847719609526));
#383=CARTESIAN_POINT('',(-2.09832194166439,3.9182119125675,-10.4847719609525));
#384=CARTESIAN_POINT('Ctrl Pts',(-2.09832194166439,3.91821191228495,10.4847719609178));
#385=CARTESIAN_POINT('Ctrl Pts',(-2.09832194166439,4.00278117079743,9.79742941783305));
#386=CARTESIAN_POINT('Ctrl Pts',(-2.09832194166439,4.07872639750409,9.11161793036525));
#387=CARTESIAN_POINT('Ctrl Pts',(-2.09832194166439,4.43049335125144,5.54691251711795));
#388=CARTESIAN_POINT('Ctrl Pts',(-2.09832194159522,4.56164183319222,2.7110022023));
#389=CARTESIAN_POINT('Ctrl Pts',(-2.09832194159522,4.56164153093642,-2.71101177896424));
#390=CARTESIAN_POINT('Ctrl Pts',(-2.09832194166439,4.43049273281412,-5.54692207916015));
#391=CARTESIAN_POINT('Ctrl Pts',(-2.09832194166439,4.07872569241146,-9.11162430382526));
#392=CARTESIAN_POINT('Ctrl Pts',(-2.09832194166439,4.00278077865949,-9.79743260973653));
#393=CARTESIAN_POINT('Ctrl Pts',(-2.09832194166439,3.91821191277584,-10.4847719609781));
#394=CARTESIAN_POINT('Origin',(-2.09832194166439,43.9409589085987,2.16840434497101E-18));
#395=CARTESIAN_POINT('Origin',(-1.09832194166439,43.9409589085987,2.16840434497101E-18));
#396=CARTESIAN_POINT('',(-1.09832096042277,3.92220430316778,-10.500000000562));
#397=CARTESIAN_POINT('Ctrl Pts',(-2.09832194168225,3.91821191271126,-10.4847719615013));
#398=CARTESIAN_POINT('Ctrl Pts',(-1.76491213875918,3.9208741124719,-10.4949341803711));
#399=CARTESIAN_POINT('Ctrl Pts',(-1.4314491803914,3.92220430577729,-10.5000000105076));
#400=CARTESIAN_POINT('Ctrl Pts',(-1.09832096042277,3.92220430316778,-10.500000000562));
#401=CARTESIAN_POINT('Origin',(-1.09832194166476,-4.13441102535828,-20.2300736890865));
#402=CARTESIAN_POINT('Ctrl Pts',(-1.09832096042277,3.92220430316778,-10.500000000562));
#403=CARTESIAN_POINT('Ctrl Pts',(-0.787147990660087,3.92220430073026,-10.4999999912719));
#404=CARTESIAN_POINT('Ctrl Pts',(-0.476267090537636,3.92104377911678,-10.4955798436405));
#405=CARTESIAN_POINT('Ctrl Pts',(-0.143432157240187,3.9185660154539,-10.4861235796348));
#406=CARTESIAN_POINT('Ctrl Pts',(-0.1208746352886,3.91839199072983,-10.4854593600449));
#407=CARTESIAN_POINT('Ctrl Pts',(-0.0983219416506603,3.91821191271457,-10.4847719615139));
#408=CARTESIAN_POINT('Origin',(-1.09832194166439,-8.18235036418608,0.));
#409=CARTESIAN_POINT('',(-19.0983219416644,-8.43235036418608,-2.20436423846524E-15));
#410=CARTESIAN_POINT('',(-18.8483219416644,-8.18235036418608,-2.17374806848655E-15));
#411=CARTESIAN_POINT('Origin',(-1.09832194166439,-8.43235036418608,0.));
#412=CARTESIAN_POINT('Origin',(-21.0983219416644,-8.43235036418608,0.));
#413=CARTESIAN_POINT('',(-20.2483219416644,-8.43235036418608,2.34519862036718E-15));
#414=CARTESIAN_POINT('Origin',(-1.09832194166439,-8.43235036418608,0.));
#415=CARTESIAN_POINT('Origin',(-1.09832194166439,-8.00735036418608,0.));
#416=CARTESIAN_POINT('',(18.9016780583356,-7.58235036418608,-2.44929359829471E-15));
#417=CARTESIAN_POINT('',(-21.0983219416644,-7.58235036418608,2.44929359829471E-15));
#418=CARTESIAN_POINT('Origin',(-1.09832194166439,-7.58235036418608,0.));
#419=CARTESIAN_POINT('',(-20.6733219416644,-8.00735036418608,2.39724610933094E-15));
#420=CARTESIAN_POINT('Origin',(-1.09832194166439,-7.58235036418608,0.));
#421=CARTESIAN_POINT('Origin',(-1.09832194166439,-5.18235036418608,0.));
#422=CARTESIAN_POINT('',(-21.0983219416644,-2.78235036418607,2.44929359829471E-15));
#423=CARTESIAN_POINT('',(18.9016780583356,-2.78235036418607,-2.44929359829471E-15));
#424=CARTESIAN_POINT('Origin',(-1.09832194166439,-2.78235036418607,0.));
#425=CARTESIAN_POINT('Origin',(-1.09832194166439,-2.78235036418607,0.));
#426=CARTESIAN_POINT('',(18.9016780583356,-5.18235036418608,-2.44929359829471E-15));
#427=CARTESIAN_POINT('Origin',(-1.09832194166439,-2.35735036418607,0.));
#428=CARTESIAN_POINT('',(-20.6733219416644,-2.35735036418607,-2.39724610933094E-15));
#429=CARTESIAN_POINT('Origin',(-1.09832194166439,0.567649635813928,0.));
#430=CARTESIAN_POINT('',(21.4016780583356,1.56764963581393,-2.75545529808154E-15));
#431=CARTESIAN_POINT('',(-1.09832098752805,1.56764963561609,-22.4999999999999));
#432=CARTESIAN_POINT('Origin',(-1.09832194166439,1.56764963581393,0.));
#433=CARTESIAN_POINT('',(21.4016780583356,0.567649635813928,-2.75545529808154E-15));
#434=CARTESIAN_POINT('Origin',(-1.09832194166439,1.56764963581393,0.));
#435=CARTESIAN_POINT('Ctrl Pts',(-1.09832098752808,1.56764703601651,-22.5000095825333));
#436=CARTESIAN_POINT('Ctrl Pts',(-23.5983259486326,1.56764729503326,-22.5000095825334));
#437=CARTESIAN_POINT('Ctrl Pts',(-23.5983259486326,1.56764854931936,-4.62142886704833E-6));
#438=CARTESIAN_POINT('Ctrl Pts',(-23.5983259486326,1.56764980360545,22.5000003396756));
#439=CARTESIAN_POINT('Ctrl Pts',(-1.09832098752808,1.5676495445887,22.5000003396756));
#440=CARTESIAN_POINT('Ctrl Pts',(21.4016839735764,1.56764928557195,22.5000003396756));
#441=CARTESIAN_POINT('Ctrl Pts',(21.4016839735764,1.56764803128585,-4.62142883817002E-6));
#442=CARTESIAN_POINT('Ctrl Pts',(21.4016839735764,1.56764677699975,-22.5000095825333));
#443=CARTESIAN_POINT('Ctrl Pts',(-1.09832098752808,1.56764703601651,-22.5000095825333));
#444=CARTESIAN_POINT('Ctrl Pts',(-1.09832095455065,4.43229728747563,-11.9404599213856));
#445=CARTESIAN_POINT('Ctrl Pts',(-13.0387760948146,4.4322974249324,-11.9404599213856));
#446=CARTESIAN_POINT('Ctrl Pts',(-13.0387760948146,4.43229809056545,-4.78112172724229E-6));
#447=CARTESIAN_POINT('Ctrl Pts',(-13.0387760948146,4.4322987561985,11.9404503591422));
#448=CARTESIAN_POINT('Ctrl Pts',(-1.09832095455065,4.43229861874174,11.9404503591422));
#449=CARTESIAN_POINT('Ctrl Pts',(10.8421341857133,4.43229848128497,11.9404503591422));
#450=CARTESIAN_POINT('Ctrl Pts',(10.8421341857133,4.43229781565192,-4.78112171191695E-6));
#451=CARTESIAN_POINT('Ctrl Pts',(10.8421341857133,4.43229715001887,-11.9404599213856));
#452=CARTESIAN_POINT('Ctrl Pts',(-1.09832095455065,4.43229728747563,-11.9404599213856));
#453=CARTESIAN_POINT('Ctrl Pts',(-1.09832095306166,4.56164163232939,-1.0000037997294));
#454=CARTESIAN_POINT('Ctrl Pts',(-2.09831996445894,4.56164164384124,-1.0000037997294));
#455=CARTESIAN_POINT('Ctrl Pts',(-2.09831996445894,4.56164169958722,-4.78833212089607E-6));
#456=CARTESIAN_POINT('Ctrl Pts',(-2.09831996445894,4.56164175533321,0.999994223065156));
#457=CARTESIAN_POINT('Ctrl Pts',(-1.09832095306166,4.56164174382137,0.999994223065157));
#458=CARTESIAN_POINT('Ctrl Pts',(-0.0983219416643853,4.56164173230952,0.999994223065157));
#459=CARTESIAN_POINT('Ctrl Pts',(-0.098321941664385,4.56164167656354,-4.78833211961259E-6));
#460=CARTESIAN_POINT('Ctrl Pts',(-0.0983219416643853,4.56164162081755,-1.0000037997294));
#461=CARTESIAN_POINT('Ctrl Pts',(-1.09832095306166,4.56164163232939,-1.0000037997294));
#462=CARTESIAN_POINT('Ctrl Pts',(-1.09832098752805,1.5676496356296,-22.49999999995));
#463=CARTESIAN_POINT('Ctrl Pts',(-1.09832096905214,3.17259583465172,-16.583914143851));
#464=CARTESIAN_POINT('Ctrl Pts',(-1.09832096042277,3.92220430316291,-10.5000000006017));
#465=CARTESIAN_POINT('Origin',(-1.09832194166439,-1.10011731715244,0.));
#466=CARTESIAN_POINT('Origin',(0.574590600880798,-1.10011731715244,20.3312902597202));
#467=UNCERTAINTY_MEASURE_WITH_UNIT(LENGTH_MEASURE(0.01),#471,
'DISTANCE_ACCURACY_VALUE',
'Maximum model space distance between geometric entities at asserted c
onnectivities');
#468=UNCERTAINTY_MEASURE_WITH_UNIT(LENGTH_MEASURE(0.01),#471,
'DISTANCE_ACCURACY_VALUE',
'Maximum model space distance between geometric entities at asserted c
onnectivities');
#469=(
GEOMETRIC_REPRESENTATION_CONTEXT(3)
GLOBAL_UNCERTAINTY_ASSIGNED_CONTEXT((#467))
GLOBAL_UNIT_ASSIGNED_CONTEXT((#471,#473,#474))
REPRESENTATION_CONTEXT('','3D')
);
#470=(
GEOMETRIC_REPRESENTATION_CONTEXT(3)
GLOBAL_UNCERTAINTY_ASSIGNED_CONTEXT((#468))
GLOBAL_UNIT_ASSIGNED_CONTEXT((#471,#473,#474))
REPRESENTATION_CONTEXT('','3D')
);
#471=(
LENGTH_UNIT()
NAMED_UNIT(*)
SI_UNIT(.MILLI.,.METRE.)
);
#472=(
LENGTH_UNIT()
NAMED_UNIT(*)
SI_UNIT(.CENTI.,.METRE.)
);
#473=(
NAMED_UNIT(*)
PLANE_ANGLE_UNIT()
SI_UNIT($,.RADIAN.)
);
#474=(
NAMED_UNIT(*)
SI_UNIT($,.STERADIAN.)
SOLID_ANGLE_UNIT()
);
#475=SHAPE_DEFINITION_REPRESENTATION(#476,#477);
#476=PRODUCT_DEFINITION_SHAPE('',$,#479);
#477=SHAPE_REPRESENTATION('',(#243),#469);
#478=PRODUCT_DEFINITION_CONTEXT('part definition',#483,'design');
#479=PRODUCT_DEFINITION('\X2\0414043504420430043B044C\X0\14',
'\X2\0413041E04240420041E041C041004220418041A\X0\ \X2\04170420\X0\1-\X2\041B0420\X0\-
M',#480,#478);
#480=PRODUCT_DEFINITION_FORMATION('',$,#485);
#481=PRODUCT_RELATED_PRODUCT_CATEGORY(
'\X2\0413041E04240420041E041C041004220418041A\X0\ \X2\04170420\X0\1-\X2\041B0420\X0\-
M','\X2\0413041E04240420041E041C041004220418041A\X0\ \X2\04170420\X0\1
-\X2\041B0420\X0\-M',(#485));
#482=APPLICATION_PROTOCOL_DEFINITION('international standard',
'automotive_design',2009,#483);
#483=APPLICATION_CONTEXT(
'Core Data for Automotive Mechanical Design Process');
#484=PRODUCT_CONTEXT('part definition',#483,'mechanical');
#485=PRODUCT('\X2\0414043504420430043B044C\X0\14',
'\X2\0413041E04240420041E041C041004220418041A\X0\ \X2\04170420\X0\1-\X2\041B0420\X0\-
M',$,(#484));
#486=PRESENTATION_STYLE_ASSIGNMENT((#487));
#487=SURFACE_STYLE_USAGE(.BOTH.,#490);
#488=SURFACE_STYLE_RENDERING_WITH_PROPERTIES($,#494,(#489));
#489=SURFACE_STYLE_TRANSPARENT(0.);
#490=SURFACE_SIDE_STYLE('',(#491,#488));
#491=SURFACE_STYLE_FILL_AREA(#492);
#492=FILL_AREA_STYLE('',(#493));
#493=FILL_AREA_STYLE_COLOUR('',#494);
#494=COLOUR_RGB('',0.749019607843137,0.749019607843137,0.749019607843137);
ENDSEC;
END-ISO-10303-21;
